ISO-10303-21;
HEADER;
/* Generated by software containing ST-Developer
 * from STEP Tools, Inc. (www.steptools.com) 
 */

FILE_DESCRIPTION(
/* description */ (''),
/* implementation_level */ '2;1');

FILE_NAME(
/* name */ 
'C:\\Work\\Designs\\Montageplatte Hartpapier\\10 INTERNET\\03 STEP\\07
12100100 - Mo-Platte f\X\FCr MBRCA 13-14-13K-14K.stp',
/* time_stamp */ '2018-10-31T11:03:19+01:00',
/* author */ ('robin.rentz'),
/* organization */ (''),
/* preprocessor_version */ 'ST-DEVELOPER v17',
/* originating_system */ 'Autodesk Inventor 2019',
/* authorisation */ '');

FILE_SCHEMA (('CONFIG_CONTROL_DESIGN'));
ENDSEC;

DATA;
#10=MECHANICAL_DESIGN_GEOMETRIC_PRESENTATION_REPRESENTATION('',(#13),#681);
#11=SHAPE_REPRESENTATION_RELATIONSHIP('SRR','None',#688,#12);
#12=ADVANCED_BREP_SHAPE_REPRESENTATION('',(#14),#680);
#13=STYLED_ITEM('',(#697),#14);
#14=MANIFOLD_SOLID_BREP('Volumenk\X\F6rper1',#413);
#15=FACE_BOUND('',#80,.T.);
#16=FACE_BOUND('',#81,.T.);
#17=FACE_BOUND('',#82,.T.);
#18=FACE_BOUND('',#83,.T.);
#19=FACE_BOUND('',#84,.T.);
#20=FACE_BOUND('',#85,.T.);
#21=FACE_BOUND('',#87,.T.);
#22=FACE_BOUND('',#88,.T.);
#23=FACE_BOUND('',#89,.T.);
#24=FACE_BOUND('',#90,.T.);
#25=FACE_BOUND('',#91,.T.);
#26=FACE_BOUND('',#92,.T.);
#27=PLANE('',#445);
#28=PLANE('',#446);
#29=PLANE('',#447);
#30=PLANE('',#448);
#31=PLANE('',#449);
#32=PLANE('',#450);
#33=PLANE('',#451);
#34=PLANE('',#452);
#35=PLANE('',#453);
#36=PLANE('',#454);
#37=PLANE('',#455);
#38=PLANE('',#456);
#39=PLANE('',#457);
#40=PLANE('',#458);
#41=FACE_OUTER_BOUND('',#61,.T.);
#42=FACE_OUTER_BOUND('',#62,.T.);
#43=FACE_OUTER_BOUND('',#63,.T.);
#44=FACE_OUTER_BOUND('',#64,.T.);
#45=FACE_OUTER_BOUND('',#65,.T.);
#46=FACE_OUTER_BOUND('',#66,.T.);
#47=FACE_OUTER_BOUND('',#67,.T.);
#48=FACE_OUTER_BOUND('',#68,.T.);
#49=FACE_OUTER_BOUND('',#69,.T.);
#50=FACE_OUTER_BOUND('',#70,.T.);
#51=FACE_OUTER_BOUND('',#71,.T.);
#52=FACE_OUTER_BOUND('',#72,.T.);
#53=FACE_OUTER_BOUND('',#73,.T.);
#54=FACE_OUTER_BOUND('',#74,.T.);
#55=FACE_OUTER_BOUND('',#75,.T.);
#56=FACE_OUTER_BOUND('',#76,.T.);
#57=FACE_OUTER_BOUND('',#77,.T.);
#58=FACE_OUTER_BOUND('',#78,.T.);
#59=FACE_OUTER_BOUND('',#79,.T.);
#60=FACE_OUTER_BOUND('',#86,.T.);
#61=EDGE_LOOP('',(#279,#280,#281,#282));
#62=EDGE_LOOP('',(#283,#284,#285,#286));
#63=EDGE_LOOP('',(#287,#288,#289,#290));
#64=EDGE_LOOP('',(#291,#292,#293,#294));
#65=EDGE_LOOP('',(#295,#296,#297,#298));
#66=EDGE_LOOP('',(#299,#300,#301,#302));
#67=EDGE_LOOP('',(#303,#304,#305,#306));
#68=EDGE_LOOP('',(#307,#308,#309,#310));
#69=EDGE_LOOP('',(#311,#312,#313,#314));
#70=EDGE_LOOP('',(#315,#316,#317,#318));
#71=EDGE_LOOP('',(#319,#320,#321,#322));
#72=EDGE_LOOP('',(#323,#324,#325,#326));
#73=EDGE_LOOP('',(#327,#328,#329,#330));
#74=EDGE_LOOP('',(#331,#332,#333,#334));
#75=EDGE_LOOP('',(#335,#336,#337,#338));
#76=EDGE_LOOP('',(#339,#340,#341,#342));
#77=EDGE_LOOP('',(#343,#344,#345,#346));
#78=EDGE_LOOP('',(#347,#348,#349,#350));
#79=EDGE_LOOP('',(#351,#352,#353,#354,#355,#356,#357,#358,#359,#360,#361,
#362));
#80=EDGE_LOOP('',(#363));
#81=EDGE_LOOP('',(#364));
#82=EDGE_LOOP('',(#365));
#83=EDGE_LOOP('',(#366));
#84=EDGE_LOOP('',(#367));
#85=EDGE_LOOP('',(#368));
#86=EDGE_LOOP('',(#369,#370,#371,#372,#373,#374,#375,#376,#377,#378,#379,
#380));
#87=EDGE_LOOP('',(#381));
#88=EDGE_LOOP('',(#382));
#89=EDGE_LOOP('',(#383));
#90=EDGE_LOOP('',(#384));
#91=EDGE_LOOP('',(#385));
#92=EDGE_LOOP('',(#386));
#93=LINE('',#572,#135);
#94=LINE('',#578,#136);
#95=LINE('',#584,#137);
#96=LINE('',#590,#138);
#97=LINE('',#596,#139);
#98=LINE('',#602,#140);
#99=LINE('',#607,#141);
#100=LINE('',#609,#142);
#101=LINE('',#611,#143);
#102=LINE('',#612,#144);
#103=LINE('',#615,#145);
#104=LINE('',#617,#146);
#105=LINE('',#618,#147);
#106=LINE('',#621,#148);
#107=LINE('',#623,#149);
#108=LINE('',#624,#150);
#109=LINE('',#627,#151);
#110=LINE('',#629,#152);
#111=LINE('',#630,#153);
#112=LINE('',#633,#154);
#113=LINE('',#635,#155);
#114=LINE('',#636,#156);
#115=LINE('',#639,#157);
#116=LINE('',#641,#158);
#117=LINE('',#642,#159);
#118=LINE('',#645,#160);
#119=LINE('',#647,#161);
#120=LINE('',#648,#162);
#121=LINE('',#651,#163);
#122=LINE('',#653,#164);
#123=LINE('',#654,#165);
#124=LINE('',#657,#166);
#125=LINE('',#659,#167);
#126=LINE('',#660,#168);
#127=LINE('',#663,#169);
#128=LINE('',#665,#170);
#129=LINE('',#666,#171);
#130=LINE('',#669,#172);
#131=LINE('',#671,#173);
#132=LINE('',#672,#174);
#133=LINE('',#674,#175);
#134=LINE('',#675,#176);
#135=VECTOR('',#465,2.5);
#136=VECTOR('',#472,2.5);
#137=VECTOR('',#479,2.5);
#138=VECTOR('',#486,2.5);
#139=VECTOR('',#493,2.);
#140=VECTOR('',#500,2.);
#141=VECTOR('',#505,10.);
#142=VECTOR('',#506,10.);
#143=VECTOR('',#507,10.);
#144=VECTOR('',#508,10.);
#145=VECTOR('',#511,10.);
#146=VECTOR('',#512,10.);
#147=VECTOR('',#513,10.);
#148=VECTOR('',#516,10.);
#149=VECTOR('',#517,10.);
#150=VECTOR('',#518,10.);
#151=VECTOR('',#521,10.);
#152=VECTOR('',#522,10.);
#153=VECTOR('',#523,10.);
#154=VECTOR('',#526,10.);
#155=VECTOR('',#527,10.);
#156=VECTOR('',#528,10.);
#157=VECTOR('',#531,10.);
#158=VECTOR('',#532,10.);
#159=VECTOR('',#533,10.);
#160=VECTOR('',#536,10.);
#161=VECTOR('',#537,10.);
#162=VECTOR('',#538,10.);
#163=VECTOR('',#541,10.);
#164=VECTOR('',#542,10.);
#165=VECTOR('',#543,10.);
#166=VECTOR('',#546,10.);
#167=VECTOR('',#547,10.);
#168=VECTOR('',#548,10.);
#169=VECTOR('',#551,10.);
#170=VECTOR('',#552,10.);
#171=VECTOR('',#553,10.);
#172=VECTOR('',#556,10.);
#173=VECTOR('',#557,10.);
#174=VECTOR('',#558,10.);
#175=VECTOR('',#561,10.);
#176=VECTOR('',#562,10.);
#177=CIRCLE('',#428,2.5);
#178=CIRCLE('',#429,2.5);
#179=CIRCLE('',#431,2.5);
#180=CIRCLE('',#432,2.5);
#181=CIRCLE('',#434,2.5);
#182=CIRCLE('',#435,2.5);
#183=CIRCLE('',#437,2.5);
#184=CIRCLE('',#438,2.5);
#185=CIRCLE('',#440,2.);
#186=CIRCLE('',#441,2.);
#187=CIRCLE('',#443,2.);
#188=CIRCLE('',#444,2.);
#189=VERTEX_POINT('',#569);
#190=VERTEX_POINT('',#571);
#191=VERTEX_POINT('',#575);
#192=VERTEX_POINT('',#577);
#193=VERTEX_POINT('',#581);
#194=VERTEX_POINT('',#583);
#195=VERTEX_POINT('',#587);
#196=VERTEX_POINT('',#589);
#197=VERTEX_POINT('',#593);
#198=VERTEX_POINT('',#595);
#199=VERTEX_POINT('',#599);
#200=VERTEX_POINT('',#601);
#201=VERTEX_POINT('',#605);
#202=VERTEX_POINT('',#606);
#203=VERTEX_POINT('',#608);
#204=VERTEX_POINT('',#610);
#205=VERTEX_POINT('',#614);
#206=VERTEX_POINT('',#616);
#207=VERTEX_POINT('',#620);
#208=VERTEX_POINT('',#622);
#209=VERTEX_POINT('',#626);
#210=VERTEX_POINT('',#628);
#211=VERTEX_POINT('',#632);
#212=VERTEX_POINT('',#634);
#213=VERTEX_POINT('',#638);
#214=VERTEX_POINT('',#640);
#215=VERTEX_POINT('',#644);
#216=VERTEX_POINT('',#646);
#217=VERTEX_POINT('',#650);
#218=VERTEX_POINT('',#652);
#219=VERTEX_POINT('',#656);
#220=VERTEX_POINT('',#658);
#221=VERTEX_POINT('',#662);
#222=VERTEX_POINT('',#664);
#223=VERTEX_POINT('',#668);
#224=VERTEX_POINT('',#670);
#225=EDGE_CURVE('',#189,#189,#177,.T.);
#226=EDGE_CURVE('',#189,#190,#93,.T.);
#227=EDGE_CURVE('',#190,#190,#178,.T.);
#228=EDGE_CURVE('',#191,#191,#179,.T.);
#229=EDGE_CURVE('',#191,#192,#94,.T.);
#230=EDGE_CURVE('',#192,#192,#180,.T.);
#231=EDGE_CURVE('',#193,#193,#181,.T.);
#232=EDGE_CURVE('',#193,#194,#95,.T.);
#233=EDGE_CURVE('',#194,#194,#182,.T.);
#234=EDGE_CURVE('',#195,#195,#183,.T.);
#235=EDGE_CURVE('',#195,#196,#96,.T.);
#236=EDGE_CURVE('',#196,#196,#184,.T.);
#237=EDGE_CURVE('',#197,#197,#185,.T.);
#238=EDGE_CURVE('',#197,#198,#97,.T.);
#239=EDGE_CURVE('',#198,#198,#186,.T.);
#240=EDGE_CURVE('',#199,#199,#187,.T.);
#241=EDGE_CURVE('',#199,#200,#98,.T.);
#242=EDGE_CURVE('',#200,#200,#188,.T.);
#243=EDGE_CURVE('',#201,#202,#99,.T.);
#244=EDGE_CURVE('',#201,#203,#100,.T.);
#245=EDGE_CURVE('',#204,#203,#101,.T.);
#246=EDGE_CURVE('',#202,#204,#102,.T.);
#247=EDGE_CURVE('',#202,#205,#103,.T.);
#248=EDGE_CURVE('',#206,#204,#104,.T.);
#249=EDGE_CURVE('',#205,#206,#105,.T.);
#250=EDGE_CURVE('',#205,#207,#106,.T.);
#251=EDGE_CURVE('',#208,#206,#107,.T.);
#252=EDGE_CURVE('',#207,#208,#108,.T.);
#253=EDGE_CURVE('',#207,#209,#109,.T.);
#254=EDGE_CURVE('',#210,#208,#110,.T.);
#255=EDGE_CURVE('',#209,#210,#111,.T.);
#256=EDGE_CURVE('',#209,#211,#112,.T.);
#257=EDGE_CURVE('',#212,#210,#113,.T.);
#258=EDGE_CURVE('',#211,#212,#114,.T.);
#259=EDGE_CURVE('',#211,#213,#115,.T.);
#260=EDGE_CURVE('',#214,#212,#116,.T.);
#261=EDGE_CURVE('',#213,#214,#117,.T.);
#262=EDGE_CURVE('',#213,#215,#118,.T.);
#263=EDGE_CURVE('',#216,#214,#119,.T.);
#264=EDGE_CURVE('',#215,#216,#120,.T.);
#265=EDGE_CURVE('',#215,#217,#121,.T.);
#266=EDGE_CURVE('',#218,#216,#122,.T.);
#267=EDGE_CURVE('',#217,#218,#123,.T.);
#268=EDGE_CURVE('',#217,#219,#124,.T.);
#269=EDGE_CURVE('',#220,#218,#125,.T.);
#270=EDGE_CURVE('',#219,#220,#126,.T.);
#271=EDGE_CURVE('',#219,#221,#127,.T.);
#272=EDGE_CURVE('',#222,#220,#128,.T.);
#273=EDGE_CURVE('',#221,#222,#129,.T.);
#274=EDGE_CURVE('',#221,#223,#130,.T.);
#275=EDGE_CURVE('',#224,#222,#131,.T.);
#276=EDGE_CURVE('',#223,#224,#132,.T.);
#277=EDGE_CURVE('',#223,#201,#133,.T.);
#278=EDGE_CURVE('',#203,#224,#134,.T.);
#279=ORIENTED_EDGE('',*,*,#225,.F.);
#280=ORIENTED_EDGE('',*,*,#226,.T.);
#281=ORIENTED_EDGE('',*,*,#227,.F.);
#282=ORIENTED_EDGE('',*,*,#226,.F.);
#283=ORIENTED_EDGE('',*,*,#228,.F.);
#284=ORIENTED_EDGE('',*,*,#229,.T.);
#285=ORIENTED_EDGE('',*,*,#230,.F.);
#286=ORIENTED_EDGE('',*,*,#229,.F.);
#287=ORIENTED_EDGE('',*,*,#231,.F.);
#288=ORIENTED_EDGE('',*,*,#232,.T.);
#289=ORIENTED_EDGE('',*,*,#233,.F.);
#290=ORIENTED_EDGE('',*,*,#232,.F.);
#291=ORIENTED_EDGE('',*,*,#234,.F.);
#292=ORIENTED_EDGE('',*,*,#235,.T.);
#293=ORIENTED_EDGE('',*,*,#236,.F.);
#294=ORIENTED_EDGE('',*,*,#235,.F.);
#295=ORIENTED_EDGE('',*,*,#237,.F.);
#296=ORIENTED_EDGE('',*,*,#238,.T.);
#297=ORIENTED_EDGE('',*,*,#239,.F.);
#298=ORIENTED_EDGE('',*,*,#238,.F.);
#299=ORIENTED_EDGE('',*,*,#240,.F.);
#300=ORIENTED_EDGE('',*,*,#241,.T.);
#301=ORIENTED_EDGE('',*,*,#242,.F.);
#302=ORIENTED_EDGE('',*,*,#241,.F.);
#303=ORIENTED_EDGE('',*,*,#243,.F.);
#304=ORIENTED_EDGE('',*,*,#244,.T.);
#305=ORIENTED_EDGE('',*,*,#245,.F.);
#306=ORIENTED_EDGE('',*,*,#246,.F.);
#307=ORIENTED_EDGE('',*,*,#247,.F.);
#308=ORIENTED_EDGE('',*,*,#246,.T.);
#309=ORIENTED_EDGE('',*,*,#248,.F.);
#310=ORIENTED_EDGE('',*,*,#249,.F.);
#311=ORIENTED_EDGE('',*,*,#250,.F.);
#312=ORIENTED_EDGE('',*,*,#249,.T.);
#313=ORIENTED_EDGE('',*,*,#251,.F.);
#314=ORIENTED_EDGE('',*,*,#252,.F.);
#315=ORIENTED_EDGE('',*,*,#253,.F.);
#316=ORIENTED_EDGE('',*,*,#252,.T.);
#317=ORIENTED_EDGE('',*,*,#254,.F.);
#318=ORIENTED_EDGE('',*,*,#255,.F.);
#319=ORIENTED_EDGE('',*,*,#256,.F.);
#320=ORIENTED_EDGE('',*,*,#255,.T.);
#321=ORIENTED_EDGE('',*,*,#257,.F.);
#322=ORIENTED_EDGE('',*,*,#258,.F.);
#323=ORIENTED_EDGE('',*,*,#259,.F.);
#324=ORIENTED_EDGE('',*,*,#258,.T.);
#325=ORIENTED_EDGE('',*,*,#260,.F.);
#326=ORIENTED_EDGE('',*,*,#261,.F.);
#327=ORIENTED_EDGE('',*,*,#262,.F.);
#328=ORIENTED_EDGE('',*,*,#261,.T.);
#329=ORIENTED_EDGE('',*,*,#263,.F.);
#330=ORIENTED_EDGE('',*,*,#264,.F.);
#331=ORIENTED_EDGE('',*,*,#265,.F.);
#332=ORIENTED_EDGE('',*,*,#264,.T.);
#333=ORIENTED_EDGE('',*,*,#266,.F.);
#334=ORIENTED_EDGE('',*,*,#267,.F.);
#335=ORIENTED_EDGE('',*,*,#268,.F.);
#336=ORIENTED_EDGE('',*,*,#267,.T.);
#337=ORIENTED_EDGE('',*,*,#269,.F.);
#338=ORIENTED_EDGE('',*,*,#270,.F.);
#339=ORIENTED_EDGE('',*,*,#271,.F.);
#340=ORIENTED_EDGE('',*,*,#270,.T.);
#341=ORIENTED_EDGE('',*,*,#272,.F.);
#342=ORIENTED_EDGE('',*,*,#273,.F.);
#343=ORIENTED_EDGE('',*,*,#274,.F.);
#344=ORIENTED_EDGE('',*,*,#273,.T.);
#345=ORIENTED_EDGE('',*,*,#275,.F.);
#346=ORIENTED_EDGE('',*,*,#276,.F.);
#347=ORIENTED_EDGE('',*,*,#277,.F.);
#348=ORIENTED_EDGE('',*,*,#276,.T.);
#349=ORIENTED_EDGE('',*,*,#278,.F.);
#350=ORIENTED_EDGE('',*,*,#244,.F.);
#351=ORIENTED_EDGE('',*,*,#277,.T.);
#352=ORIENTED_EDGE('',*,*,#243,.T.);
#353=ORIENTED_EDGE('',*,*,#247,.T.);
#354=ORIENTED_EDGE('',*,*,#250,.T.);
#355=ORIENTED_EDGE('',*,*,#253,.T.);
#356=ORIENTED_EDGE('',*,*,#256,.T.);
#357=ORIENTED_EDGE('',*,*,#259,.T.);
#358=ORIENTED_EDGE('',*,*,#262,.T.);
#359=ORIENTED_EDGE('',*,*,#265,.T.);
#360=ORIENTED_EDGE('',*,*,#268,.T.);
#361=ORIENTED_EDGE('',*,*,#271,.T.);
#362=ORIENTED_EDGE('',*,*,#274,.T.);
#363=ORIENTED_EDGE('',*,*,#225,.T.);
#364=ORIENTED_EDGE('',*,*,#228,.T.);
#365=ORIENTED_EDGE('',*,*,#231,.T.);
#366=ORIENTED_EDGE('',*,*,#234,.T.);
#367=ORIENTED_EDGE('',*,*,#237,.T.);
#368=ORIENTED_EDGE('',*,*,#240,.T.);
#369=ORIENTED_EDGE('',*,*,#278,.T.);
#370=ORIENTED_EDGE('',*,*,#275,.T.);
#371=ORIENTED_EDGE('',*,*,#272,.T.);
#372=ORIENTED_EDGE('',*,*,#269,.T.);
#373=ORIENTED_EDGE('',*,*,#266,.T.);
#374=ORIENTED_EDGE('',*,*,#263,.T.);
#375=ORIENTED_EDGE('',*,*,#260,.T.);
#376=ORIENTED_EDGE('',*,*,#257,.T.);
#377=ORIENTED_EDGE('',*,*,#254,.T.);
#378=ORIENTED_EDGE('',*,*,#251,.T.);
#379=ORIENTED_EDGE('',*,*,#248,.T.);
#380=ORIENTED_EDGE('',*,*,#245,.T.);
#381=ORIENTED_EDGE('',*,*,#227,.T.);
#382=ORIENTED_EDGE('',*,*,#230,.T.);
#383=ORIENTED_EDGE('',*,*,#233,.T.);
#384=ORIENTED_EDGE('',*,*,#236,.T.);
#385=ORIENTED_EDGE('',*,*,#239,.T.);
#386=ORIENTED_EDGE('',*,*,#242,.T.);
#387=CYLINDRICAL_SURFACE('',#427,2.5);
#388=CYLINDRICAL_SURFACE('',#430,2.5);
#389=CYLINDRICAL_SURFACE('',#433,2.5);
#390=CYLINDRICAL_SURFACE('',#436,2.5);
#391=CYLINDRICAL_SURFACE('',#439,2.);
#392=CYLINDRICAL_SURFACE('',#442,2.);
#393=ADVANCED_FACE('',(#41),#387,.F.);
#394=ADVANCED_FACE('',(#42),#388,.F.);
#395=ADVANCED_FACE('',(#43),#389,.F.);
#396=ADVANCED_FACE('',(#44),#390,.F.);
#397=ADVANCED_FACE('',(#45),#391,.F.);
#398=ADVANCED_FACE('',(#46),#392,.F.);
#399=ADVANCED_FACE('',(#47),#27,.T.);
#400=ADVANCED_FACE('',(#48),#28,.T.);
#401=ADVANCED_FACE('',(#49),#29,.T.);
#402=ADVANCED_FACE('',(#50),#30,.T.);
#403=ADVANCED_FACE('',(#51),#31,.T.);
#404=ADVANCED_FACE('',(#52),#32,.T.);
#405=ADVANCED_FACE('',(#53),#33,.T.);
#406=ADVANCED_FACE('',(#54),#34,.T.);
#407=ADVANCED_FACE('',(#55),#35,.T.);
#408=ADVANCED_FACE('',(#56),#36,.T.);
#409=ADVANCED_FACE('',(#57),#37,.T.);
#410=ADVANCED_FACE('',(#58),#38,.T.);
#411=ADVANCED_FACE('',(#59,#15,#16,#17,#18,#19,#20),#39,.F.);
#412=ADVANCED_FACE('',(#60,#21,#22,#23,#24,#25,#26),#40,.T.);
#413=CLOSED_SHELL('',(#393,#394,#395,#396,#397,#398,#399,#400,#401,#402,
#403,#404,#405,#406,#407,#408,#409,#410,#411,#412));
#414=DERIVED_UNIT_ELEMENT(#416,1.);
#415=DERIVED_UNIT_ELEMENT(#683,3.);
#416=(
MASS_UNIT()
NAMED_UNIT(*)
SI_UNIT($,.GRAM.)
);
#417=DERIVED_UNIT((#414,#415));
#418=MEASURE_REPRESENTATION_ITEM('density measure',
POSITIVE_RATIO_MEASURE(0.55),#417);
#419=PROPERTY_DEFINITION_REPRESENTATION(#424,#421);
#420=PROPERTY_DEFINITION_REPRESENTATION(#425,#422);
#421=REPRESENTATION('material name',(#423),#680);
#422=REPRESENTATION('density',(#418),#680);
#423=DESCRIPTIVE_REPRESENTATION_ITEM('Holz (Walnuss)','Holz (Walnuss)');
#424=PROPERTY_DEFINITION('material property','material name',#690);
#425=PROPERTY_DEFINITION('material property','density of part',#690);
#426=AXIS2_PLACEMENT_3D('placement',#567,#459,#460);
#427=AXIS2_PLACEMENT_3D('',#568,#461,#462);
#428=AXIS2_PLACEMENT_3D('',#570,#463,#464);
#429=AXIS2_PLACEMENT_3D('',#573,#466,#467);
#430=AXIS2_PLACEMENT_3D('',#574,#468,#469);
#431=AXIS2_PLACEMENT_3D('',#576,#470,#471);
#432=AXIS2_PLACEMENT_3D('',#579,#473,#474);
#433=AXIS2_PLACEMENT_3D('',#580,#475,#476);
#434=AXIS2_PLACEMENT_3D('',#582,#477,#478);
#435=AXIS2_PLACEMENT_3D('',#585,#480,#481);
#436=AXIS2_PLACEMENT_3D('',#586,#482,#483);
#437=AXIS2_PLACEMENT_3D('',#588,#484,#485);
#438=AXIS2_PLACEMENT_3D('',#591,#487,#488);
#439=AXIS2_PLACEMENT_3D('',#592,#489,#490);
#440=AXIS2_PLACEMENT_3D('',#594,#491,#492);
#441=AXIS2_PLACEMENT_3D('',#597,#494,#495);
#442=AXIS2_PLACEMENT_3D('',#598,#496,#497);
#443=AXIS2_PLACEMENT_3D('',#600,#498,#499);
#444=AXIS2_PLACEMENT_3D('',#603,#501,#502);
#445=AXIS2_PLACEMENT_3D('',#604,#503,#504);
#446=AXIS2_PLACEMENT_3D('',#613,#509,#510);
#447=AXIS2_PLACEMENT_3D('',#619,#514,#515);
#448=AXIS2_PLACEMENT_3D('',#625,#519,#520);
#449=AXIS2_PLACEMENT_3D('',#631,#524,#525);
#450=AXIS2_PLACEMENT_3D('',#637,#529,#530);
#451=AXIS2_PLACEMENT_3D('',#643,#534,#535);
#452=AXIS2_PLACEMENT_3D('',#649,#539,#540);
#453=AXIS2_PLACEMENT_3D('',#655,#544,#545);
#454=AXIS2_PLACEMENT_3D('',#661,#549,#550);
#455=AXIS2_PLACEMENT_3D('',#667,#554,#555);
#456=AXIS2_PLACEMENT_3D('',#673,#559,#560);
#457=AXIS2_PLACEMENT_3D('',#676,#563,#564);
#458=AXIS2_PLACEMENT_3D('',#677,#565,#566);
#459=DIRECTION('axis',(0.,0.,1.));
#460=DIRECTION('refdir',(1.,0.,0.));
#461=DIRECTION('center_axis',(0.,0.,1.));
#462=DIRECTION('ref_axis',(-1.,0.,0.));
#463=DIRECTION('center_axis',(0.,0.,1.));
#464=DIRECTION('ref_axis',(-1.,0.,0.));
#465=DIRECTION('',(0.,0.,1.));
#466=DIRECTION('center_axis',(0.,0.,-1.));
#467=DIRECTION('ref_axis',(-1.,0.,0.));
#468=DIRECTION('center_axis',(0.,0.,1.));
#469=DIRECTION('ref_axis',(-1.,0.,0.));
#470=DIRECTION('center_axis',(0.,0.,1.));
#471=DIRECTION('ref_axis',(-1.,0.,0.));
#472=DIRECTION('',(0.,0.,1.));
#473=DIRECTION('center_axis',(0.,0.,-1.));
#474=DIRECTION('ref_axis',(-1.,0.,0.));
#475=DIRECTION('center_axis',(0.,0.,1.));
#476=DIRECTION('ref_axis',(-1.,0.,0.));
#477=DIRECTION('center_axis',(0.,0.,1.));
#478=DIRECTION('ref_axis',(-1.,0.,0.));
#479=DIRECTION('',(0.,0.,1.));
#480=DIRECTION('center_axis',(0.,0.,-1.));
#481=DIRECTION('ref_axis',(-1.,0.,0.));
#482=DIRECTION('center_axis',(0.,0.,1.));
#483=DIRECTION('ref_axis',(-1.,0.,0.));
#484=DIRECTION('center_axis',(0.,0.,1.));
#485=DIRECTION('ref_axis',(-1.,0.,0.));
#486=DIRECTION('',(0.,0.,1.));
#487=DIRECTION('center_axis',(0.,0.,-1.));
#488=DIRECTION('ref_axis',(-1.,0.,0.));
#489=DIRECTION('center_axis',(0.,0.,1.));
#490=DIRECTION('ref_axis',(-1.,0.,0.));
#491=DIRECTION('center_axis',(0.,0.,1.));
#492=DIRECTION('ref_axis',(-1.,0.,0.));
#493=DIRECTION('',(0.,0.,1.));
#494=DIRECTION('center_axis',(0.,0.,-1.));
#495=DIRECTION('ref_axis',(-1.,0.,0.));
#496=DIRECTION('center_axis',(0.,0.,1.));
#497=DIRECTION('ref_axis',(-1.,0.,0.));
#498=DIRECTION('center_axis',(0.,0.,1.));
#499=DIRECTION('ref_axis',(-1.,0.,0.));
#500=DIRECTION('',(0.,0.,1.));
#501=DIRECTION('center_axis',(0.,0.,-1.));
#502=DIRECTION('ref_axis',(-1.,0.,0.));
#503=DIRECTION('center_axis',(1.,0.,0.));
#504=DIRECTION('ref_axis',(0.,1.,0.));
#505=DIRECTION('',(0.,-1.,0.));
#506=DIRECTION('',(0.,0.,1.));
#507=DIRECTION('',(0.,1.,0.));
#508=DIRECTION('',(0.,0.,1.));
#509=DIRECTION('center_axis',(0.,1.,0.));
#510=DIRECTION('ref_axis',(-1.,0.,0.));
#511=DIRECTION('',(1.,0.,0.));
#512=DIRECTION('',(-1.,0.,0.));
#513=DIRECTION('',(0.,0.,1.));
#514=DIRECTION('center_axis',(1.,0.,0.));
#515=DIRECTION('ref_axis',(0.,1.,0.));
#516=DIRECTION('',(0.,-1.,0.));
#517=DIRECTION('',(0.,1.,0.));
#518=DIRECTION('',(0.,0.,1.));
#519=DIRECTION('center_axis',(0.,-1.,0.));
#520=DIRECTION('ref_axis',(1.,0.,0.));
#521=DIRECTION('',(-1.,0.,0.));
#522=DIRECTION('',(1.,0.,0.));
#523=DIRECTION('',(0.,0.,1.));
#524=DIRECTION('center_axis',(1.,0.,0.));
#525=DIRECTION('ref_axis',(0.,1.,0.));
#526=DIRECTION('',(0.,-1.,0.));
#527=DIRECTION('',(0.,1.,0.));
#528=DIRECTION('',(0.,0.,1.));
#529=DIRECTION('center_axis',(0.,-1.,0.));
#530=DIRECTION('ref_axis',(1.,0.,0.));
#531=DIRECTION('',(-1.,0.,0.));
#532=DIRECTION('',(1.,0.,0.));
#533=DIRECTION('',(0.,0.,1.));
#534=DIRECTION('center_axis',(-1.,0.,0.));
#535=DIRECTION('ref_axis',(0.,-1.,0.));
#536=DIRECTION('',(0.,1.,0.));
#537=DIRECTION('',(0.,-1.,0.));
#538=DIRECTION('',(0.,0.,1.));
#539=DIRECTION('center_axis',(0.,-1.,0.));
#540=DIRECTION('ref_axis',(1.,0.,0.));
#541=DIRECTION('',(-1.,0.,0.));
#542=DIRECTION('',(1.,0.,0.));
#543=DIRECTION('',(0.,0.,1.));
#544=DIRECTION('center_axis',(-1.,0.,0.));
#545=DIRECTION('ref_axis',(0.,-1.,0.));
#546=DIRECTION('',(0.,1.,0.));
#547=DIRECTION('',(0.,-1.,0.));
#548=DIRECTION('',(0.,0.,1.));
#549=DIRECTION('center_axis',(0.,1.,0.));
#550=DIRECTION('ref_axis',(-1.,0.,0.));
#551=DIRECTION('',(1.,0.,0.));
#552=DIRECTION('',(-1.,0.,0.));
#553=DIRECTION('',(0.,0.,1.));
#554=DIRECTION('center_axis',(-1.,0.,0.));
#555=DIRECTION('ref_axis',(0.,-1.,0.));
#556=DIRECTION('',(0.,1.,0.));
#557=DIRECTION('',(0.,-1.,0.));
#558=DIRECTION('',(0.,0.,1.));
#559=DIRECTION('center_axis',(0.,1.,0.));
#560=DIRECTION('ref_axis',(-1.,0.,0.));
#561=DIRECTION('',(1.,0.,0.));
#562=DIRECTION('',(-1.,0.,0.));
#563=DIRECTION('center_axis',(0.,0.,1.));
#564=DIRECTION('ref_axis',(1.,0.,0.));
#565=DIRECTION('center_axis',(0.,0.,1.));
#566=DIRECTION('ref_axis',(1.,0.,0.));
#567=CARTESIAN_POINT('',(0.,0.,0.));
#568=CARTESIAN_POINT('Origin',(55.,-19.75,0.));
#569=CARTESIAN_POINT('',(57.5,-19.75,0.));
#570=CARTESIAN_POINT('Origin',(55.,-19.75,0.));
#571=CARTESIAN_POINT('',(57.5,-19.75,2.));
#572=CARTESIAN_POINT('',(57.5,-19.75,0.));
#573=CARTESIAN_POINT('Origin',(55.,-19.75,2.));
#574=CARTESIAN_POINT('Origin',(55.,20.25,0.));
#575=CARTESIAN_POINT('',(57.5,20.25,0.));
#576=CARTESIAN_POINT('Origin',(55.,20.25,0.));
#577=CARTESIAN_POINT('',(57.5,20.25,2.));
#578=CARTESIAN_POINT('',(57.5,20.25,0.));
#579=CARTESIAN_POINT('Origin',(55.,20.25,2.));
#580=CARTESIAN_POINT('Origin',(-55.,-19.75,0.));
#581=CARTESIAN_POINT('',(-52.5,-19.75,0.));
#582=CARTESIAN_POINT('Origin',(-55.,-19.75,0.));
#583=CARTESIAN_POINT('',(-52.5,-19.75,2.));
#584=CARTESIAN_POINT('',(-52.5,-19.75,0.));
#585=CARTESIAN_POINT('Origin',(-55.,-19.75,2.));
#586=CARTESIAN_POINT('Origin',(-55.,20.25,0.));
#587=CARTESIAN_POINT('',(-52.5,20.25,0.));
#588=CARTESIAN_POINT('Origin',(-55.,20.25,0.));
#589=CARTESIAN_POINT('',(-52.5,20.25,2.));
#590=CARTESIAN_POINT('',(-52.5,20.25,0.));
#591=CARTESIAN_POINT('Origin',(-55.,20.25,2.));
#592=CARTESIAN_POINT('Origin',(20.,55.25,0.));
#593=CARTESIAN_POINT('',(22.,55.25,0.));
#594=CARTESIAN_POINT('Origin',(20.,55.25,0.));
#595=CARTESIAN_POINT('',(22.,55.25,2.));
#596=CARTESIAN_POINT('',(22.,55.25,0.));
#597=CARTESIAN_POINT('Origin',(20.,55.25,2.));
#598=CARTESIAN_POINT('Origin',(-20.,55.25,0.));
#599=CARTESIAN_POINT('',(-18.,55.25,0.));
#600=CARTESIAN_POINT('Origin',(-20.,55.25,0.));
#601=CARTESIAN_POINT('',(-18.,55.25,2.));
#602=CARTESIAN_POINT('',(-18.,55.25,0.));
#603=CARTESIAN_POINT('Origin',(-20.,55.25,2.));
#604=CARTESIAN_POINT('Origin',(49.,48.75,0.));
#605=CARTESIAN_POINT('',(49.,59.75,0.));
#606=CARTESIAN_POINT('',(49.,48.75,0.));
#607=CARTESIAN_POINT('',(49.,59.75,0.));
#608=CARTESIAN_POINT('',(49.,59.75,2.));
#609=CARTESIAN_POINT('',(49.,59.75,0.));
#610=CARTESIAN_POINT('',(49.,48.75,2.));
#611=CARTESIAN_POINT('',(49.,59.75,2.));
#612=CARTESIAN_POINT('',(49.,48.75,0.));
#613=CARTESIAN_POINT('Origin',(59.5,48.75,0.));
#614=CARTESIAN_POINT('',(59.5,48.75,0.));
#615=CARTESIAN_POINT('',(49.,48.75,0.));
#616=CARTESIAN_POINT('',(59.5,48.75,2.));
#617=CARTESIAN_POINT('',(49.,48.75,2.));
#618=CARTESIAN_POINT('',(59.5,48.75,0.));
#619=CARTESIAN_POINT('Origin',(59.5,-48.75,0.));
#620=CARTESIAN_POINT('',(59.5,-48.75,0.));
#621=CARTESIAN_POINT('',(59.5,48.75,0.));
#622=CARTESIAN_POINT('',(59.5,-48.75,2.));
#623=CARTESIAN_POINT('',(59.5,48.75,2.));
#624=CARTESIAN_POINT('',(59.5,-48.75,0.));
#625=CARTESIAN_POINT('Origin',(49.,-48.75,0.));
#626=CARTESIAN_POINT('',(49.,-48.75,0.));
#627=CARTESIAN_POINT('',(59.5,-48.75,0.));
#628=CARTESIAN_POINT('',(49.,-48.75,2.));
#629=CARTESIAN_POINT('',(59.5,-48.75,2.));
#630=CARTESIAN_POINT('',(49.,-48.75,0.));
#631=CARTESIAN_POINT('Origin',(49.,-85.25,0.));
#632=CARTESIAN_POINT('',(49.,-85.25,0.));
#633=CARTESIAN_POINT('',(49.,-48.75,0.));
#634=CARTESIAN_POINT('',(49.,-85.25,2.));
#635=CARTESIAN_POINT('',(49.,-48.75,2.));
#636=CARTESIAN_POINT('',(49.,-85.25,0.));
#637=CARTESIAN_POINT('Origin',(-49.,-85.25,0.));
#638=CARTESIAN_POINT('',(-49.,-85.25,0.));
#639=CARTESIAN_POINT('',(49.,-85.25,0.));
#640=CARTESIAN_POINT('',(-49.,-85.25,2.));
#641=CARTESIAN_POINT('',(49.,-85.25,2.));
#642=CARTESIAN_POINT('',(-49.,-85.25,0.));
#643=CARTESIAN_POINT('Origin',(-49.,-48.75,0.));
#644=CARTESIAN_POINT('',(-49.,-48.75,0.));
#645=CARTESIAN_POINT('',(-49.,-85.25,0.));
#646=CARTESIAN_POINT('',(-49.,-48.75,2.));
#647=CARTESIAN_POINT('',(-49.,-85.25,2.));
#648=CARTESIAN_POINT('',(-49.,-48.75,0.));
#649=CARTESIAN_POINT('Origin',(-59.5,-48.75,0.));
#650=CARTESIAN_POINT('',(-59.5,-48.75,0.));
#651=CARTESIAN_POINT('',(-49.,-48.75,0.));
#652=CARTESIAN_POINT('',(-59.5,-48.75,2.));
#653=CARTESIAN_POINT('',(-49.,-48.75,2.));
#654=CARTESIAN_POINT('',(-59.5,-48.75,0.));
#655=CARTESIAN_POINT('Origin',(-59.5,48.75,0.));
#656=CARTESIAN_POINT('',(-59.5,48.75,0.));
#657=CARTESIAN_POINT('',(-59.5,-48.75,0.));
#658=CARTESIAN_POINT('',(-59.5,48.75,2.));
#659=CARTESIAN_POINT('',(-59.5,-48.75,2.));
#660=CARTESIAN_POINT('',(-59.5,48.75,0.));
#661=CARTESIAN_POINT('Origin',(-49.,48.75,0.));
#662=CARTESIAN_POINT('',(-49.,48.75,0.));
#663=CARTESIAN_POINT('',(-59.5,48.75,0.));
#664=CARTESIAN_POINT('',(-49.,48.75,2.));
#665=CARTESIAN_POINT('',(-59.5,48.75,2.));
#666=CARTESIAN_POINT('',(-49.,48.75,0.));
#667=CARTESIAN_POINT('Origin',(-49.,59.75,0.));
#668=CARTESIAN_POINT('',(-49.,59.75,0.));
#669=CARTESIAN_POINT('',(-49.,48.75,0.));
#670=CARTESIAN_POINT('',(-49.,59.75,2.));
#671=CARTESIAN_POINT('',(-49.,48.75,2.));
#672=CARTESIAN_POINT('',(-49.,59.75,0.));
#673=CARTESIAN_POINT('Origin',(49.,59.75,0.));
#674=CARTESIAN_POINT('',(-49.,59.75,0.));
#675=CARTESIAN_POINT('',(-49.,59.75,2.));
#676=CARTESIAN_POINT('Origin',(2.52323414687536E-16,-11.7357954545454,0.));
#677=CARTESIAN_POINT('Origin',(0.,-11.7357954545454,2.));
#678=UNCERTAINTY_MEASURE_WITH_UNIT(LENGTH_MEASURE(0.01),#682,
'DISTANCE_ACCURACY_VALUE',
'Maximum model space distance between geometric entities at asserted c
onnectivities');
#679=UNCERTAINTY_MEASURE_WITH_UNIT(LENGTH_MEASURE(0.01),#682,
'DISTANCE_ACCURACY_VALUE',
'Maximum model space distance between geometric entities at asserted c
onnectivities');
#680=(
GEOMETRIC_REPRESENTATION_CONTEXT(3)
GLOBAL_UNCERTAINTY_ASSIGNED_CONTEXT((#678))
GLOBAL_UNIT_ASSIGNED_CONTEXT((#682,#685,#684))
REPRESENTATION_CONTEXT('','3D')
);
#681=(
GEOMETRIC_REPRESENTATION_CONTEXT(3)
GLOBAL_UNCERTAINTY_ASSIGNED_CONTEXT((#679))
GLOBAL_UNIT_ASSIGNED_CONTEXT((#682,#685,#684))
REPRESENTATION_CONTEXT('','3D')
);
#682=(
LENGTH_UNIT()
NAMED_UNIT(*)
SI_UNIT(.MILLI.,.METRE.)
);
#683=(
LENGTH_UNIT()
NAMED_UNIT(*)
SI_UNIT(.CENTI.,.METRE.)
);
#684=(
NAMED_UNIT(*)
SI_UNIT($,.STERADIAN.)
SOLID_ANGLE_UNIT()
);
#685=(
NAMED_UNIT(*)
PLANE_ANGLE_UNIT()
SI_UNIT($,.RADIAN.)
);
#686=SHAPE_DEFINITION_REPRESENTATION(#687,#688);
#687=PRODUCT_DEFINITION_SHAPE('',$,#690);
#688=SHAPE_REPRESENTATION('',(#426),#680);
#689=DESIGN_CONTEXT('part definition',#694,'design');
#690=PRODUCT_DEFINITION(
'0712100100 - Mo-Platte f\X\FCr MBRCA 13-14-13K-14K',
'0712100100 - Mo-Platte f\X\FCr MBRCA 13-14-13K-14K',#691,#689);
#691=PRODUCT_DEFINITION_FORMATION('',$,#696);
#692=PRODUCT_RELATED_PRODUCT_CATEGORY(
'0712100100 - Mo-Platte f\X\FCr MBRCA 13-14-13K-14K',
'0712100100 - Mo-Platte f\X\FCr MBRCA 13-14-13K-14K',(#696));
#693=APPLICATION_PROTOCOL_DEFINITION('international standard',
'ap203_configuration_controlled_3d_design_of_mechanical_parts_and_asse
mblies_mim_lf',2004,#694);
#694=APPLICATION_CONTEXT(
'Configuration Controlled 3D Design of Mechanical Parts and Assemblies');
#695=MECHANICAL_CONTEXT('part definition',#694,'mechanical');
#696=PRODUCT('0712100100 - Mo-Platte f\X\FCr MBRCA 13-14-13K-14K',
'0712100100 - Mo-Platte f\X\FCr MBRCA 13-14-13K-14K',$,(#695));
#697=PRESENTATION_STYLE_ASSIGNMENT((#698));
#698=SURFACE_STYLE_USAGE(.BOTH.,#699);
#699=SURFACE_SIDE_STYLE('',(#700));
#700=SURFACE_STYLE_FILL_AREA(#701);
#701=FILL_AREA_STYLE('',(#702));
#702=FILL_AREA_STYLE_COLOUR('',#703);
#703=COLOUR_RGB('',0.298039215686275,0.168627450980392,0.125490196078431);
ENDSEC;
END-ISO-10303-21;
